BOTA NA CABEÇA QUE ESTILO NÃO É MARRA... E AÍ MARQUINHO DJ? FAZ UM SAMPLEY DE GUITARRA!

Origem: Desciclopédia, a enciclopédia livre de conteúdo.
Ir para: navegação, pesquisa
Nuvola apps kcmmidi.png
Esta página é parte do acervo de Descifras

O melhor lugar para se pegar aquela tradução que você nunca viu.



O poder único de um manjador de sampley de guitarra.

Cquote1.png Você quis dizer: Mandar AQUELE ao vivo Cquote2.png
Google sobre Sampley de Guitarra

Sample Sampley de Guitarra, ou na versão mais fodástica, SAMPLEY DE GUITARRA em caixa alta mesmo, é uma canção do mito DJ André Marques, também conhecido como Marquinho DJ ou Andremarques1979, que nos ensinou, antes de restar de si mesmo tão somente o resto dele fazendo sampley em programas da madrugada do Essebesteira (Danilo Gentili, paga nóis!). Com seu cigarrinho multiuso e seu fone de ouvido, além de sua aparelhagem mítica, Sweet Child O' Mine e seu riff mais fodástico que seu solo de quase um minuto de duração e os fãinquis viram entidades inseparáveis.


Descrição básica[editar]

Hitlerintimidade.jpg NiNGuÈiM KoNsErT u ArTIGUuUuU PLZ x)
Pode parecer que este artigo foi escrito por alguém que não fala Português. Porém, ocorre que é de propósito, com finalidade humorística. Professor Pasquale agracede pela menção!


Preparando-se pra mandar AQUELE na balada!
Mandar AQUELE ao vivo as vezes causa efeitos estranhos.
Pelo visto Slash não curtiu muito o sampley de guitarra...
Agora eu entendi o que é AQUELE que ele manda ao vivo... saiam de junto pessoal!
Foi assim que o André emagreceu e o seu resto foi ejetado do seu corpo: mandando AQUELE ao vivo.
Marquinho DJ dominando sua cabeça com o SAMPLEY DE GUITARRA!

[Voz distorcida saindo do grosso até a voz fina parece viado do cantor]
DEIDEIDEIXDEIXDIEXIEDIEIDIEIDIEIDIEIDEIXA DEIXA OS GAROTO BRINCAR! DE-DEIXA OS GAROTO BRINCAR
DEDEDEI DEIXA OS GAROTO BRIN... DEIXA OS GAROTO BRINCAR
DEDEDEDEDEDEDDEDDDDDDDDDDDDDDDDDDDDDDDkkkkkkkkkkkkKKKKKKKKKK DEIXA OS GAROTO
DEIXUS DEIXUX EXUS JESUS YESHUS RESSUS DEIXUSGAROTUBRINCAR DEIXU EXU EXU EXU

(corte seco com a batera eletrônica)

BOTA NA CABEÇA QUE ESTILO NÃO É MARRA!
E AÍ MARQUINHO DJ? FAZ UM SAMPLEY DE GUITARRA!

Tom: C# (com acordes na forma de D) Afinação: Eb Ab Db Gb Bb Eb

Introdução: D C G

(Guitarra 1)

E|-------------15----14----------------15----14-------|
B|----15----------------------15----------------------|
G|-------14-12----14----14-------14-12----14----14----|
D|-12----------------------12-------------------------|
A|----------------------------------------------------|
E|----------------------------------------------------|

E|-------------15----14---|
B|----15------------------|
G|-------14-12----14----14|
D|-14---------------------|
A|------------------------|
E|------------------------| (O baguiu buga aqui)

FAZ UM SAMPLEY DE GUITARRA!

(Narração - PRODUÇÕES E MIXAGENS: Marquinho DJ, ooooooooooooo brabo da MPC)
(SEGURA, MOLEQUE)
E|-------------15----14----------------15----14-------|
B|----15----------------------15----------------------|
G|-------14-12----14----14-------14-12----14----14----|
D|-12----------------------12-------------------------|
A|----------------------------------------------------|
E|----------------------------------------------------|

E|-------------15----14---|
B|----15------------------|
G|-------14-12----14----14|
D|-14---------------------|
A|------------------------|
E|------------------------|

FAZ UM SAMPLEY DE GUITARRA!

(Um monte de sorrisos WTF ao longo desse trecho)
E|-------------15----14----------------15----14-------|
B|----15----------------------15----------------------|
G|-------14-12----14----14-------14-12----14----14----|
D|-12----------------------12-------------------------|
A|----------------------------------------------------|
E|----------------------------------------------------|

E|-------------15----14---|
B|----15------------------|
G|-------14-12----14----14|
D|-14---------------------|
A|------------------------|
E|------------------------|

(Corte seco)

Eu virei astronauta!

(Tecladinho!)
(oi? Oiusoiusosius)

EEEEEEEU VIREI ASTRONAUTA!

(Bumbum Tantam invertido - barulho de peidinho)

EEEU VIREI ASTRONAUTA!

(tecotecoteco)

EEEEEEEEEU VIREI ASTRONAUTA!

(Teclado come)

Oi? (8x) (beat box)

OIOIOIOI VEMQUEVEMQUEVEMQUEVEM DÁ UMA SENTADA!!!!!

DÁ UMA SENTA DÁ UMA SENTA DÁ UMA SENTA DÁ UMA SENTAAAAAA DADADADADADADADDA

DÁ UMA SENTA DAUMASENTADAUMASENTADADDADADADADADADA!

(Uns gritos impossíveis de dizer que porra é)
(Voz gutural do cantor fazendo sexo tântrico com sua naja no próprio rabo)
(??????? minha gente, não cobro [?] nessa porra não! O bagulho é o perigo)

TIN TUM TUM TUM... TUM - TAM TAM TAM TAM TAAAAAAAAAM...

DANCE DANDANDANCE!

E assim encerra esse estilo pra você botar na cabeça que ele não é marra!

Vídeo para acompanhar também na dancinha[editar]

Recomendamos dançar tal qual o maluco cobra que queria ser um astronauta, mas ficou serpenteando feito louco na frente do Piscinão de Ramos.